Sanat Akademi

MEB'e Bağlı Ruhsatlı Bir Eğitim Kurumudur

Gitarla Çalınabilecek Çocuk Şarkıları

Küçük Çocuklara Gitarı Sevdirmenin En Eğlenceli Yolunu Keşfedin!

4-10 yaş aralığındaki çocuklar, gitar çalmaya başladıklarında başarılarını hemen görmek isterler. Özellikle okul öncesi dönemde çocuklar, başarmak için sabretmeleri gerektiğinin farkında olmadıkları için kendilerini güzel bir parça çalarken görmeyi ve bunu etraflarındaki insanlara ispat etmeyi beklerler. Çocuk gitar kursları da bu yaş aralığındaki çocuklara günlük yaşamdan aşina oldukları çizgi film müziklerinden, sevdikleri şarkıcılardan ve animasyon şarkılarından bir repertuar hazırlarlar.

Siz de çocuk gitar kursuna katılan çocuğunuzun gitar çalma becerilerini geliştirmek için onun çocuk gitar şarkılarını çalmasını destekleyebilir hatta imkanınız varsa onunla birlikte gitarla çalınabilecek çocuk şarkılarına eşlik edebilirsiniz.

Gitarla Çalınan Çocuk Şarkıları

Çocuğunu erken dönemde müzik ve sanatla buluşturmak isteyen aileler, en değerli varlıklarını çocuk gitar kursuna göndermekle kalmayıp onun bu ilgisini ve merakını evde de sürdürmek, eğitim sürecini güçlendirmek isterler. Çalması kolay, eğlenceli ve bol hareketli çocuk şarkıları, onların müziğe ve gitara olan bağlılıklarını daha artırır. İşte, en çok sevilen çocuk şarkıları notaları:

Çocuk Şarkıları: Kırmızı Balık

Kırmızı balık gölde, kıvrıla kıvrıla yüzüyor

Balıkçı Hasan geliyor, oltasını atıyor

Kırmızı balık dinle, sakın yemi yeme

Balıkçı Hasan seni tutacak, sepetine atacak

Kırmızı balık kaç kaç, kırmızı balık kaç kaç kaç

A |--------------------0------|-----------------------0-0------|

E |---1---1--3--1--3-------3--|---1---1--3--1---1--3--------3--|

C |---------------------------|--------------------------------|

G |---------------------------|--------------------------------|

      Kır-mı-zı ba-lık göl-de,    kıv-rı-la kıv-rı-la yü-zü-yor.

 

A |--------------------0--0------|-----------------0-0---------|

E |---1--1---3--1--3---------3---|---1--3--1--3---------3------|

C |------------------------------|-----------------------------|

G |------------------------------|-----------------------------|

      Ba-lık-çı ha-san ge-li-yor,    ol-ta-sı-nı   a-tı-yor.

 

A |--------------------0------|----------------0---------------|

E |---1---1--3--1--3-------3--|---1---3--1--3-----3------------|

C |---------------------------|--------------------------------|

G |---------------------------|--------------------------------|

      Kır-mı-zı ba-lık din-le,    sak-ın ye-mi ye-me.

 

A |--------------------0-0------|-----------------0-0----------|

E |---1--1---3--1--3--------3---|---1--3--1--3---------3-------|

C |-----------------------------|------------------------------|

G |-----------------------------|------------------------------|

      Ba-lık-çı se-ni tu-ta-cak,    se-pe-ti-ne   a-ta-cak

 

A |--------------------0-------|--------------------0----------|

E |---1---1--3--1--3-------3---|---1---1--3--1--3-------3------|

C |----------------------------|-------------------------------|

G |----------------------------|-------------------------------|

      Kır-mı-zı ba-lık kaç-kaç,    kır-mı-zı ba-lık kaç-kaç.



A |--------------------0-------|--------------------0----------|

E |---1---1--3--1--3-------3---|---1---1--3--1--3-------3---1--|

C |----------------------------|-------------------------------|

G |----------------------------|-------------------------------|

      Kır-mı-zı ba-lık kaç-kaç,    kır-mı-zı ba-lık kaç-kaç-kaç.

2-Çocuk Şarkıları: Bebek Balina

Bebek balina dü düt dü düt

Bebek balina dü düt dü düt

Bebek balina dü düt dü düt 

Balina

Anne balina dü düt dü düt

Anne balina dü düt dü düt

Anne balina dü düt dü düt

Anne balina dü düt dü düt

Balina

Baba balina dü düt dü düt

Baba balina dü düt dü düt

Baba balina dü düt dü düt

Baba balina dü düt dü düt

Balina

e|--------------------------------------------------------------|

B|---------------------------3/4-3/4-3/4-3/4--------------------|

G|--------------------------------------------------------------|

D|--------------------------------------------------------------|

A|--5h6----5h6---5h6--5h6--5/6-5/6-5/6-5/6----------------------|

E|--------------------------------------------------------------|

 

e|--------------------------------------------------------------|

B|--------------------------------------------------------------|

G|--------------------------------------------------------7-----|

D|--5-3-5-6-5-3-0-3---5-3-5-6-5-3-0-3---5-3-5-6-5--3-5-6--x-----|

A|--------------------------------------------------------5-----|

E|--x-x-x-x-x-x-x-x---x-x-x-x-x-x-x-x---x-x-x-x-x--x-x-x--x-----|

3-Çocuk Şarkıları: Otobüs Tekerlekleri

Otobüsün tekerlekleri dönüyor ve dönüyor,

Otobüsün kapıları açılıp kapanıyor,

Otobüsteki silecekler çalışıyor, çalışıyor, çalışıyor,

Otobüsün motoru vroom, vroom, vroom gider,

Otobüsün kornası bip, bip, bip çalar,

Otobüsteki para tıkır tıkır, tıkır tıkır gider,

Otobüsteki şoför "uzunca yürü" diyor,

Otobüsteki bebekler vah, vah, vah,

Otobüsteki anneler ş, ş, ş diyor,

Otobüsteki babalar bak bak bak derler

Otobüsteki dedeler gıdıklıyor, gıdıklıyor, gıdıklıyor,

Otobüsteki büyükanneler gee-gee-hooh yapar,

E |--------------------------------|-------------- -----------0-------|-3-------0-------------------- ---|

B |---------------------------------|-1-------1---1 ---------------------------------------------------------------------1----------- ---|

G |-------------------------0-------|-----0-------- -------0-------0---|-----0-------0-------0--------0 ---|

D |-----0-------0-------0-------0---|--------2---- -----------2-------|---------2---------------2---- ---|

A |---------2---------|-3------------ ---3---------------|-3---------------3------------ ---|

E |-3---------------3---------------|-------------- -------------------|------------------------------ ---|

Çocuklarınıza Gitarı Öğretmeyin Sevdirin!

Çocuk gitar şarkıları, ne kadar eğlenceli ve basit olursa çocukların gitara olan tutkuları daha da çok gelişir. Yeni şarkılar çalmayı bekler, öğrendikleri parçaları her fırsatta sevdiklerine gösterirler. Yukarıda sizler için sıraladığımız çocuk şarkılarına ek olarak Arı Vız Vız, Pepe Çok Üzülüyor, On Küçük Penguen ve Kedi Miyav Dedi gibi gitarla çalınabilecek çocuk şarkıları da oldukça keyifli.

Siz de çocuğunuzun şarkılar, oyunlar ve çeşitli eğlencelerle gitar çalmayı öğrenmesini istiyor, onu geleceğe sanatsever bir birey olarak yetiştirmeyi planlıyorsanız Sanat Akademi’nin çocuk gitar kurslarına gelebilir, çocuğunuzun ne kadar iyi şartlarda gitar eğitimi alacağına gözlerinizle şahit olabilirsiniz.

[widget-187]

Yorum Yap

Bilgi Al
Bilgi Al +90 (850) 532 33 44